0
SECTION
2
HEADER
9
$ACADVER
1
AC0904
9
$TEXTSTYLE
7
STANDARD
9
$CECOLOR
62
256
9
$AUNITS
70
0
9
$LUNITS
70
3
9
$EXTMIN
10
2.2450
20
2.2450
9
$EXTMAX
10
7.7550
20
7.7550
9
$FILLMODE
70
1
0
ENDSEC
0
SECTION
2
TABLES
0
TABLE
2
LTYPE
70
1
0
LTYPE
2
SOLID
70
0
3
Solid line
72
65
73
0
40
0.0
0
ENDTAB
0
TABLE
2
LAYER
70
5
0
LAYER
2
0
70
64
62
7
6
SOLID
0
LAYER
2
1
70
64
62
7
6
SOLID
0
LAYER
2
12
70
64
62
7
6
SOLID
0
LAYER
2
13
70
64
62
7
6
SOLID
0
LAYER
2
14
70
64
62
7
6
SOLID
0
LAYER
2
25
70
64
62
7
6
SOLID
0
ENDTAB
0
ENDSEC
0
SECTION
2
BLOCKS
0
BLOCK
2
32767
70
0
10
0.0
20
0.0
0
POLYLINE
8
0
66
1
70
1
40
0.5
41
0.5
0
VERTEX
8
0
10
-0.25
20
0.0
42
1.0
0
VERTEX
8
0
10
0.25
20
0.0
42
1.0
0
SEQEND
0
ENDBLK
0
BLOCK
2
0
70
0
10
0.0
20
0.0
0
POLYLINE
8
0
66
1
40
0.0010
41
0.0010
0
VERTEX
8
0
10
0.000000
20
-0.058000
42
0.000000
0
VERTEX
8
0
10
0.000000
20
0.058000
42
0.000000
0
SEQEND
0
POLYLINE
8
0
66
1
40
0.0010
41
0.0010
0
VERTEX
8
0
10
-0.058000
20
0.000000
42
0.000000
0
VERTEX
8
0
10
0.058000
20
0.000000
42
0.000000
0
SEQEND
0
CIRCLE
8
0
10
0.0000
20
0.0000
40
0.0580
0
ENDBLK
0
BLOCK
2
1
70
0
10
0.0
20
0.0
0
POLYLINE
8
0
66
1
40
0.0010
41
0.0010
0
VERTEX
8
0
10
0.000000
20
-0.058000
42
0.000000
0
VERTEX
8
0
10
0.000000
20
0.058000
42
0.000000
0
SEQEND
0
POLYLINE
8
0
66
1
40
0.0010
41
0.0010
0
VERTEX
8
0
10
-0.058000
20
0.000000
42
0.000000
0
VERTEX
8
0
10
0.058000
20
0.000000
42
0.000000
0
SEQEND
0
CIRCLE
8
0
10
0.0000
20
0.0000
40
0.0580
0
ENDBLK
0
ENDSEC
0
SECTION
2
ENTITIES
0
INSERT
8
0
2
32767
10
7.6600
20
3.5400
41
0.1000
42
0.1000
0
POLYLINE
8
0
66
1
40
0.1000
41
0.1000
0
VERTEX
8
0
10
7.660000
20
3.540000
42
0.000000
0
VERTEX
8
0
10
7.660000
20
6.460000
42
0.000000
0
SEQEND
0
INSERT
8
0
2
32767
10
7.6600
20
6.4600
41
0.1000
42
0.1000
0
INSERT
8
0
2
32767
10
2.9400
20
2.9400
41
0.1000
42
0.1000
0
POLYLINE
8
0
66
1
40
0.1000
41
0.1000
0
VERTEX
8
0
10
2.940000
20
2.940000
42
0.000000
0
VERTEX
8
0
10
7.060000
20
2.940000
42
0.000000
0
SEQEND
0
INSERT
8
0
2
32767
10
7.0600
20
2.9400
41
0.1000
42
0.1000
0
INSERT
8
0
2
32767
10
2.3400
20
3.5400
41
0.1000
42
0.1000
0
POLYLINE
8
0
66
1
40
0.1000
41
0.1000
0
VERTEX
8
0
10
2.340000
20
3.540000
42
0.000000
0
VERTEX
8
0
10
2.340000
20
6.460000
42
0.000000
0
SEQEND
0
INSERT
8
0
2
32767
10
2.3400
20
6.4600
41
0.1000
42
0.1000
0
INSERT
8
0
2
32767
10
2.9400
20
7.0600
41
0.1000
42
0.1000
0
POLYLINE
8
0
66
1
40
0.1000
41
0.1000
0
VERTEX
8
0
10
2.940000
20
7.060000
42
0.000000
0
VERTEX
8
0
10
7.060000
20
7.060000
42
0.000000
0
SEQEND
0
INSERT
8
0
2
32767
10
7.0600
20
7.0600
41
0.1000
42
0.1000
0
INSERT
8
0
2
32767
10
4.7050
20
2.6500
41
0.0200
42
0.0200
0
POLYLINE
8
0
66
1
40
0.0200
41
0.0200
0
VERTEX
8
0
10
4.705000
20
2.650000
42
0.000000
0
VERTEX
8
0
10
4.705000
20
2.710000
42
0.000000
0
SEQEND
0
INSERT
8
0
2
32767
10
4.7050
20
2.7100
41
0.0200
42
0.0200
0
INSERT
8
0
2
32767
10
4.6250
20
2.6750
41
0.0200
42
0.0200
0
POLYLINE
8
0
66
1
40
0.0200
41
0.0200
0
VERTEX
8
0
10
4.625000
20
2.675000
42
0.000000
0
VERTEX
8
0
10
4.625000
20
2.725000
42
0.000000
0
SEQEND
0
INSERT
8
0
2
32767
10
4.6250
20
2.7250
41
0.0200
42
0.0200
0
INSERT
8
0
2
32767
10
4.7450
20
2.6500
41
0.0200
42
0.0200
0
POLYLINE
8
0
66
1
40
0.0200
41
0.0200
0
VERTEX
8
0
10
4.745000
20
2.650000
42
0.000000
0
VERTEX
8
0
10
4.745000
20
2.710000
42
0.000000
0
SEQEND
0
INSERT
8
0
2
32767
10
4.7450
20
2.7100
41
0.0200
42
0.0200
0
INSERT
8
0
2
32767
10
4.8100
20
2.6750
41
0.0200
42
0.0200
0
POLYLINE
8
0
66
1
40
0.0200
41
0.0200
0
VERTEX
8
0
10
4.810000
20
2.675000
42
0.000000
0
VERTEX
8
0
10
4.810000
20
2.685000
42
0.000000
0
SEQEND
0
INSERT
8
0
2
32767
10
4.8100
20
2.6850
41
0.0200
42
0.0200
0
INSERT
8
0
2
32767
10
4.8900
20
2.6750
41
0.0200
42
0.0200
0
POLYLINE
8
0
66
1
40
0.0200
41
0.0200
0
VERTEX
8
0
10
4.890000
20
2.675000
42
0.000000
0
VERTEX
8
0
10
4.890000
20
2.710000
42
0.000000
0
SEQEND
0
INSERT
8
0
2
32767
10
4.8900
20
2.7100
41
0.0200
42
0.0200
0
INSERT
8
0
2
32767
10
4.9400
20
2.6500
41
0.0200
42
0.0200
0
POLYLINE
8
0
66
1
40
0.0200
41
0.0200
0
VERTEX
8
0
10
4.940000
20
2.650000
42
0.000000
0
VERTEX
8
0
10
4.940000
20
2.710000
42
0.000000
0
SEQEND
0
INSERT
8
0
2
32767
10
4.9400
20
2.7100
41
0.0200
42
0.0200
0
INSERT
8
0
2
32767
10
4.9750
20
2.6500
41
0.0200
42
0.0200
0
POLYLINE
8
0
66
1
40
0.0200
41
0.0200
0
VERTEX
8
0
10
4.975000
20
2.650000
42
0.000000
0
VERTEX
8
0
10
4.975000
20
2.710000
42
0.000000
0
SEQEND
0
INSERT
8
0
2
32767
10
4.9750
20
2.7100
41
0.0200
42
0.0200
0
INSERT
8
0
2
32767
10
5.0300
20
2.6500
41
0.0200
42
0.0200
0
POLYLINE
8
0
66
1
40
0.0200
41
0.0200
0
VERTEX
8
0
10
5.030000
20
2.650000
42
0.000000
0
VERTEX
8
0
10
5.030000
20
2.750000
42
0.000000
0
SEQEND
0
INSERT
8
0
2
32767
10
5.0300
20
2.7500
41
0.0200
42
0.0200
0
INSERT
8
0
2
32767
10
5.0100
20
2.7150
41
0.0200
42
0.0200
0
POLYLINE
8
0
66
1
40
0.0200
41
0.0200
0
VERTEX
8
0
10
5.010000
20
2.715000
42
0.000000
0
VERTEX
8
0
10
5.050000
20
2.715000
42
0.000000
0
SEQEND
0
INSERT
8
0
2
32767
10
5.0500
20
2.7150
41
0.0200
42
0.0200
0
INSERT
8
0
2
32767
10
5.1700
20
2.6500
41
0.0200
42
0.0200
0
POLYLINE
8
0
66
1
40
0.0200
41
0.0200
0
VERTEX
8
0
10
5.170000
20
2.650000
42
0.000000
0
VERTEX
8
0
10
5.170000
20
2.750000
42
0.000000
0
SEQEND
0
INSERT
8
0
2
32767
10
5.1700
20
2.7500
41
0.0200
42
0.0200
0
INSERT
8
0
2
32767
10
5.2200
20
2.6500
41
0.0200
42
0.0200
0
POLYLINE
8
0
66
1
40
0.0200
41
0.0200
0
VERTEX
8
0
10
5.220000
20
2.650000
42
0.000000
0
VERTEX
8
0
10
5.220000
20
2.685000
42
0.000000
0
SEQEND
0
INSERT
8
0
2
32767
10
5.2200
20
2.6850
41
0.0200
42
0.0200
0
INSERT
8
0
2
32767
10
5.2500
20
2.6750
41
0.0200
42
0.0200
0
POLYLINE
8
0
66
1
40
0.0200
41
0.0200
0
VERTEX
8
0
10
5.250000
20
2.675000
42
0.000000
0
VERTEX
8
0
10
5.250000
20
2.685000
42
0.000000
0
SEQEND
0
INSERT
8
0
2
32767
10
5.2500
20
2.6850
41
0.0200
42
0.0200
0
INSERT
8
0
2
32767
10
5.2550
20
2.6600
41
0.0200
42
0.0200
0
POLYLINE
8
0
66
1
40
0.0200
41
0.0200
0
VERTEX
8
0
10
5.255000
20
2.660000
42
0.000000
0
VERTEX
8
0
10
5.295000
20
2.700000
42
0.000000
0
SEQEND
0
INSERT
8
0
2
32767
10
5.2950
20
2.7000
41
0.0200
42
0.0200
0
INSERT
8
0
2
32767
10
5.3350
20
2.6500
41
0.0200
42
0.0200
0
POLYLINE
8
0
66
1
40
0.0200
41
0.0200
0
VERTEX
8
0
10
5.335000
20
2.650000
42
0.000000
0
VERTEX
8
0
10
5.335000
20
2.750000
42
0.000000
0
SEQEND
0
INSERT
8
0
2
32767
10
5.3350
20
2.7500
41
0.0200
42
0.0200
0
INSERT
8
0
2
32767
10
5.3750
20
2.6500
41
0.0200
42
0.0200
0
POLYLINE
8
0
66
1
40
0.0200
41
0.0200
0
VERTEX
8
0
10
5.375000
20
2.650000
42
0.000000
0
VERTEX
8
0
10
5.375000
20
2.750000
42
0.000000
0
SEQEND
0
INSERT
8
0
2
32767
10
5.3750
20
2.7500
41
0.0200
42
0.0200
0
INSERT
8
0
2
32767
10
2.3400
20
3.5400
41
0.1000
42
0.1000
0
POLYLINE
8
0
66
1
40
0.1000
41
0.1000
0
VERTEX
8
0
10
2.340000
20
3.540000
42
0.414214
0
VERTEX
8
0
10
2.940000
20
2.940000
42
0.414214
0
SEQEND
0
INSERT
8
0
2
32767
10
2.9400
20
2.9400
41
0.1000
42
0.1000
0
INSERT
8
0
2
32767
10
7.0600
20
2.9400
41
0.1000
42
0.1000
0
POLYLINE
8
0
66
1
40
0.1000
41
0.1000
0
VERTEX
8
0
10
7.060000
20
2.940000
42
0.414214
0
VERTEX
8
0
10
7.660000
20
3.540000
42
0.414214
0
SEQEND
0
INSERT
8
0
2
32767
10
7.6600
20
3.5400
41
0.1000
42
0.1000
0
INSERT
8
0
2
32767
10
2.9400
20
7.0600
41
0.1000
42
0.1000
0
POLYLINE
8
0
66
1
40
0.1000
41
0.1000
0
VERTEX
8
0
10
2.940000
20
7.060000
42
0.414214
0
VERTEX
8
0
10
2.340000
20
6.460000
42
0.414214
0
SEQEND
0
INSERT
8
0
2
32767
10
2.3400
20
6.4600
41
0.1000
42
0.1000
0
INSERT
8
0
2
32767
10
7.6600
20
6.4600
41
0.1000
42
0.1000
0
POLYLINE
8
0
66
1
40
0.1000
41
0.1000
0
VERTEX
8
0
10
7.660000
20
6.460000
42
0.414214
0
VERTEX
8
0
10
7.060000
20
7.060000
42
0.414214
0
SEQEND
0
INSERT
8
0
2
32767
10
7.0600
20
7.0600
41
0.1000
42
0.1000
0
INSERT
8
0
2
32767
10
5.0950
20
2.6550
41
0.0200
42
0.0200
0
POLYLINE
8
0
66
1
40
0.0200
41
0.0200
0
VERTEX
8
0
10
5.095045
20
2.654966
42
0.162860
0
VERTEX
8
0
10
5.080000
20
2.660000
42
0.162860
0
SEQEND
0
INSERT
8
0
2
32767
10
5.0800
20
2.6600
41
0.0200
42
0.0200
0
INSERT
8
0
2
32767
10
4.6250
20
2.6750
41
0.0200
42
0.0200
0
POLYLINE
8
0
66
1
40
0.0200
41
0.0200
0
VERTEX
8
0
10
4.625000
20
2.675000
42
0.719897
0
VERTEX
8
0
10
4.669966
20
2.659955
42
0.719897
0
SEQEND
0
INSERT
8
0
2
32767
10
4.6700
20
2.6600
41
0.0200
42
0.0200
0
INSERT
8
0
2
32767
10
4.6700
20
2.7400
41
0.0200
42
0.0200
0
POLYLINE
8
0
66
1
40
0.0200
41
0.0200
0
VERTEX
8
0
10
4.669966
20
2.740045
42
0.719897
0
VERTEX
8
0
10
4.625000
20
2.725000
42
0.719897
0
SEQEND
0
INSERT
8
0
2
32767
10
4.6250
20
2.7250
41
0.0200
42
0.0200
0
INSERT
8
0
2
32767
10
4.7850
20
2.7050
41
0.0200
42
0.0200
0
POLYLINE
8
0
66
1
40
0.0200
41
0.0200
0
VERTEX
8
0
10
4.785045
20
2.704966
42
0.618819
0
VERTEX
8
0
10
4.745000
20
2.685000
42
0.618819
0
SEQEND
0
INSERT
8
0
2
32767
10
4.7450
20
2.6850
41
0.0200
42
0.0200
0
INSERT
8
0
2
32767
10
4.8100
20
2.6750
41
0.0200
42
0.0200
0
POLYLINE
8
0
66
1
40
0.0200
41
0.0200
0
VERTEX
8
0
10
4.810000
20
2.675000
42
0.719897
0
VERTEX
8
0
10
4.854966
20
2.659955
42
0.719897
0
SEQEND
0
INSERT
8
0
2
32767
10
4.8550
20
2.6600
41
0.0200
42
0.0200
0
INSERT
8
0
2
32767
10
4.8550
20
2.7000
41
0.0200
42
0.0200
0
POLYLINE
8
0
66
1
40
0.0200
41
0.0200
0
VERTEX
8
0
10
4.854966
20
2.700045
42
0.719897
0
VERTEX
8
0
10
4.810000
20
2.685000
42
0.719897
0
SEQEND
0
INSERT
8
0
2
32767
10
4.8100
20
2.6850
41
0.0200
42
0.0200
0
INSERT
8
0
2
32767
10
4.8900
20
2.6750
41
0.0200
42
0.0200
0
POLYLINE
8
0
66
1
40
0.0200
41
0.0200
0
VERTEX
8
0
10
4.890000
20
2.675000
42
1.000000
0
VERTEX
8
0
10
4.940000
20
2.675000
42
1.000000
0
SEQEND
0
INSERT
8
0
2
32767
10
4.9400
20
2.6750
41
0.0200
42
0.0200
0
INSERT
8
0
2
32767
10
5.0950
20
2.6550
41
0.0200
42
0.0200
0
POLYLINE
8
0
66
1
40
0.0200
41
0.0200
0
VERTEX
8
0
10
5.094955
20
2.655034
42
1.389088
0
VERTEX
8
0
10
5.110000
20
2.700000
42
1.389088
0
SEQEND
0
INSERT
8
0
2
32767
10
5.1100
20
2.7000
41
0.0200
42
0.0200
0
INSERT
8
0
2
32767
10
5.1250
20
2.7450
41
0.0200
42
0.0200
0
POLYLINE
8
0
66
1
40
0.0200
41
0.0200
0
VERTEX
8
0
10
5.125045
20
2.744966
42
1.389088
0
VERTEX
8
0
10
5.110000
20
2.700000
42
1.389088
0
SEQEND
0
INSERT
8
0
2
32767
10
5.1100
20
2.7000
41
0.0200
42
0.0200
0
INSERT
8
0
2
32767
10
5.2200
20
2.6850
41
0.0200
42
0.0200
0
POLYLINE
8
0
66
1
40
0.0200
41
0.0200
0
VERTEX
8
0
10
5.220000
20
2.685000
42
1.000000
0
VERTEX
8
0
10
5.170000
20
2.685000
42
1.000000
0
SEQEND
0
INSERT
8
0
2
32767
10
5.1700
20
2.6850
41
0.0200
42
0.0200
0
INSERT
8
0
2
32767
10
5.2500
20
2.6750
41
0.0200
42
0.0200
0
POLYLINE
8
0
66
1
40
0.0200
41
0.0200
0
VERTEX
8
0
10
5.250000
20
2.675000
42
0.719897
0
VERTEX
8
0
10
5.294966
20
2.659955
42
0.719897
0
SEQEND
0
INSERT
8
0
2
32767
10
5.2950
20
2.6600
41
0.0200
42
0.0200
0
INSERT
8
0
2
32767
10
5.2950
20
2.7000
41
0.0200
42
0.0200
0
POLYLINE
8
0
66
1
40
0.0200
41
0.0200
0
VERTEX
8
0
10
5.294966
20
2.700045
42
0.719897
0
VERTEX
8
0
10
5.250000
20
2.685000
42
0.719897
0
SEQEND
0
INSERT
8
0
2
32767
10
5.2500
20
2.6850
41
0.0200
42
0.0200
0
POLYLINE
8
0
66
1
40
0.0100
41
0.0100
0
VERTEX
8
0
10
4.710000
20
2.740000
42
1.000000
0
VERTEX
8
0
10
4.700000
20
2.740000
42
1.000000
0
VERTEX
8
0
10
4.710000
20
2.740000
42
1.000000
0
SEQEND
0
POLYLINE
8
0
66
1
40
0.0100
41
0.0100
0
VERTEX
8
0
10
4.980000
20
2.740000
42
1.000000
0
VERTEX
8
0
10
4.970000
20
2.740000
42
1.000000
0
VERTEX
8
0
10
4.980000
20
2.740000
42
1.000000
0
SEQEND
0
INSERT
8
1
2
32767
10
7.0600
20
2.9400
41
0.1000
42
0.1000
0
POLYLINE
8
1
66
1
40
0.1000
41
0.1000
0
VERTEX
8
1
10
7.060000
20
2.940000
42
0.000000
0
VERTEX
8
1
10
7.060000
20
7.060000
42
0.000000
0
SEQEND
0
INSERT
8
1
2
32767
10
7.0600
20
7.0600
41
0.1000
42
0.1000
0
INSERT
8
1
2
32767
10
3.5400
20
2.3400
41
0.1000
42
0.1000
0
POLYLINE
8
1
66
1
40
0.1000
41
0.1000
0
VERTEX
8
1
10
3.540000
20
2.340000
42
0.000000
0
VERTEX
8
1
10
6.460000
20
2.340000
42
0.000000
0
SEQEND
0
INSERT
8
1
2
32767
10
6.4600
20
2.3400
41
0.1000
42
0.1000
0
INSERT
8
1
2
32767
10
2.9400
20
2.9400
41
0.1000
42
0.1000
0
POLYLINE
8
1
66
1
40
0.1000
41
0.1000
0
VERTEX
8
1
10
2.940000
20
2.940000
42
0.000000
0
VERTEX
8
1
10
2.940000
20
7.060000
42
0.000000
0
SEQEND
0
INSERT
8
1
2
32767
10
2.9400
20
7.0600
41
0.1000
42
0.1000
0
INSERT
8
1
2
32767
10
3.5400
20
7.6600
41
0.1000
42
0.1000
0
POLYLINE
8
1
66
1
40
0.1000
41
0.1000
0
VERTEX
8
1
10
3.540000
20
7.660000
42
0.000000
0
VERTEX
8
1
10
6.460000
20
7.660000
42
0.000000
0
SEQEND
0
INSERT
8
1
2
32767
10
6.4600
20
7.6600
41
0.1000
42
0.1000
0
INSERT
8
1
2
32767
10
2.9400
20
2.9400
41
0.1000
42
0.1000
0
POLYLINE
8
1
66
1
40
0.1000
41
0.1000
0
VERTEX
8
1
10
2.940000
20
2.940000
42
0.414214
0
VERTEX
8
1
10
3.540000
20
2.340000
42
0.414214
0
SEQEND
0
INSERT
8
1
2
32767
10
3.5400
20
2.3400
41
0.1000
42
0.1000
0
INSERT
8
1
2
32767
10
6.4600
20
2.3400
41
0.1000
42
0.1000
0
POLYLINE
8
1
66
1
40
0.1000
41
0.1000
0
VERTEX
8
1
10
6.460000
20
2.340000
42
0.414214
0
VERTEX
8
1
10
7.060000
20
2.940000
42
0.414214
0
SEQEND
0
INSERT
8
1
2
32767
10
7.0600
20
2.9400
41
0.1000
42
0.1000
0
INSERT
8
1
2
32767
10
3.5400
20
7.6600
41
0.1000
42
0.1000
0
POLYLINE
8
1
66
1
40
0.1000
41
0.1000
0
VERTEX
8
1
10
3.540000
20
7.660000
42
0.414214
0
VERTEX
8
1
10
2.940000
20
7.060000
42
0.414214
0
SEQEND
0
INSERT
8
1
2
32767
10
2.9400
20
7.0600
41
0.1000
42
0.1000
0
INSERT
8
1
2
32767
10
7.0600
20
7.0600
41
0.1000
42
0.1000
0
POLYLINE
8
1
66
1
40
0.1000
41
0.1000
0
VERTEX
8
1
10
7.060000
20
7.060000
42
0.414214
0
VERTEX
8
1
10
6.460000
20
7.660000
42
0.414214
0
SEQEND
0
INSERT
8
1
2
32767
10
6.4600
20
7.6600
41
0.1000
42
0.1000
0
INSERT
8
12
2
32767
10
2.2500
20
3.0000
41
0.0100
42
0.0100
0
POLYLINE
8
12
66
1
40
0.0100
41
0.0100
0
VERTEX
8
12
10
2.250000
20
3.000000
42
0.000000
0
VERTEX
8
12
10
2.250000
20
7.000000
42
0.000000
0
SEQEND
0
INSERT
8
12
2
32767
10
2.2500
20
7.0000
41
0.0100
42
0.0100
0
INSERT
8
12
2
32767
10
7.7500
20
3.0000
41
0.0100
42
0.0100
0
POLYLINE
8
12
66
1
40
0.0100
41
0.0100
0
VERTEX
8
12
10
7.750000
20
3.000000
42
0.000000
0
VERTEX
8
12
10
7.750000
20
7.000000
42
0.000000
0
SEQEND
0
INSERT
8
12
2
32767
10
7.7500
20
7.0000
41
0.0100
42
0.0100
0
INSERT
8
12
2
32767
10
2.4000
20
7.1500
41
0.0100
42
0.0100
0
POLYLINE
8
12
66
1
40
0.0100
41
0.0100
0
VERTEX
8
12
10
2.400000
20
7.150000
42
0.000000
0
VERTEX
8
12
10
7.600000
20
7.150000
42
0.000000
0
SEQEND
0
INSERT
8
12
2
32767
10
7.6000
20
7.1500
41
0.0100
42
0.0100
0
INSERT
8
12
2
32767
10
2.4000
20
2.8500
41
0.0100
42
0.0100
0
POLYLINE
8
12
66
1
40
0.0100
41
0.0100
0
VERTEX
8
12
10
2.400000
20
2.850000
42
0.000000
0
VERTEX
8
12
10
7.600000
20
2.850000
42
0.000000
0
SEQEND
0
INSERT
8
12
2
32767
10
7.6000
20
2.8500
41
0.0100
42
0.0100
0
INSERT
8
12
2
32767
10
7.5700
20
3.5400
41
0.0100
42
0.0100
0
POLYLINE
8
12
66
1
40
0.0100
41
0.0100
0
VERTEX
8
12
10
7.570000
20
3.540000
42
0.000000
0
VERTEX
8
12
10
7.570000
20
6.460000
42
0.000000
0
SEQEND
0
INSERT
8
12
2
32767
10
7.5700
20
6.4600
41
0.0100
42
0.0100
0
INSERT
8
12
2
32767
10
2.4300
20
3.5400
41
0.0100
42
0.0100
0
POLYLINE
8
12
66
1
40
0.0100
41
0.0100
0
VERTEX
8
12
10
2.430000
20
3.540000
42
0.000000
0
VERTEX
8
12
10
2.430000
20
6.460000
42
0.000000
0
SEQEND
0
INSERT
8
12
2
32767
10
2.4300
20
6.4600
41
0.0100
42
0.0100
0
INSERT
8
12
2
32767
10
2.9400
20
6.9700
41
0.0100
42
0.0100
0
POLYLINE
8
12
66
1
40
0.0100
41
0.0100
0
VERTEX
8
12
10
2.940000
20
6.970000
42
0.000000
0
VERTEX
8
12
10
7.060000
20
6.970000
42
0.000000
0
SEQEND
0
INSERT
8
12
2
32767
10
7.0600
20
6.9700
41
0.0100
42
0.0100
0
INSERT
8
12
2
32767
10
2.9400
20
3.0300
41
0.0100
42
0.0100
0
POLYLINE
8
12
66
1
40
0.0100
41
0.0100
0
VERTEX
8
12
10
2.940000
20
3.030000
42
0.000000
0
VERTEX
8
12
10
7.060000
20
3.030000
42
0.000000
0
SEQEND
0
INSERT
8
12
2
32767
10
7.0600
20
3.0300
41
0.0100
42
0.0100
0
INSERT
8
12
2
32767
10
5.3750
20
2.6500
41
0.0200
42
0.0200
0
POLYLINE
8
12
66
1
40
0.0200
41
0.0200
0
VERTEX
8
12
10
5.375000
20
2.650000
42
0.000000
0
VERTEX
8
12
10
5.375000
20
2.750000
42
0.000000
0
SEQEND
0
INSERT
8
12
2
32767
10
5.3750
20
2.7500
41
0.0200
42
0.0200
0
INSERT
8
12
2
32767
10
5.3350
20
2.6500
41
0.0200
42
0.0200
0
POLYLINE
8
12
66
1
40
0.0200
41
0.0200
0
VERTEX
8
12
10
5.335000
20
2.650000
42
0.000000
0
VERTEX
8
12
10
5.335000
20
2.750000
42
0.000000
0
SEQEND
0
INSERT
8
12
2
32767
10
5.3350
20
2.7500
41
0.0200
42
0.0200
0
INSERT
8
12
2
32767
10
5.2200
20
2.6500
41
0.0200
42
0.0200
0
POLYLINE
8
12
66
1
40
0.0200
41
0.0200
0
VERTEX
8
12
10
5.220000
20
2.650000
42
0.000000
0
VERTEX
8
12
10
5.220000
20
2.685000
42
0.000000
0
SEQEND
0
INSERT
8
12
2
32767
10
5.2200
20
2.6850
41
0.0200
42
0.0200
0
INSERT
8
12
2
32767
10
5.1700
20
2.6500
41
0.0200
42
0.0200
0
POLYLINE
8
12
66
1
40
0.0200
41
0.0200
0
VERTEX
8
12
10
5.170000
20
2.650000
42
0.000000
0
VERTEX
8
12
10
5.170000
20
2.750000
42
0.000000
0
SEQEND
0
INSERT
8
12
2
32767
10
5.1700
20
2.7500
41
0.0200
42
0.0200
0
INSERT
8
12
2
32767
10
5.2550
20
2.6600
41
0.0200
42
0.0200
0
POLYLINE
8
12
66
1
40
0.0200
41
0.0200
0
VERTEX
8
12
10
5.255000
20
2.660000
42
0.000000
0
VERTEX
8
12
10
5.295000
20
2.700000
42
0.000000
0
SEQEND
0
INSERT
8
12
2
32767
10
5.2950
20
2.7000
41
0.0200
42
0.0200
0
INSERT
8
12
2
32767
10
5.2500
20
2.6750
41
0.0200
42
0.0200
0
POLYLINE
8
12
66
1
40
0.0200
41
0.0200
0
VERTEX
8
12
10
5.250000
20
2.675000
42
0.000000
0
VERTEX
8
12
10
5.250000
20
2.685000
42
0.000000
0
SEQEND
0
INSERT
8
12
2
32767
10
5.2500
20
2.6850
41
0.0200
42
0.0200
0
INSERT
8
12
2
32767
10
5.0100
20
2.7150
41
0.0200
42
0.0200
0
POLYLINE
8
12
66
1
40
0.0200
41
0.0200
0
VERTEX
8
12
10
5.010000
20
2.715000
42
0.000000
0
VERTEX
8
12
10
5.050000
20
2.715000
42
0.000000
0
SEQEND
0
INSERT
8
12
2
32767
10
5.0500
20
2.7150
41
0.0200
42
0.0200
0
INSERT
8
12
2
32767
10
5.0300
20
2.6500
41
0.0200
42
0.0200
0
POLYLINE
8
12
66
1
40
0.0200
41
0.0200
0
VERTEX
8
12
10
5.030000
20
2.650000
42
0.000000
0
VERTEX
8
12
10
5.030000
20
2.750000
42
0.000000
0
SEQEND
0
INSERT
8
12
2
32767
10
5.0300
20
2.7500
41
0.0200
42
0.0200
0
INSERT
8
12
2
32767
10
4.9750
20
2.6500
41
0.0200
42
0.0200
0
POLYLINE
8
12
66
1
40
0.0200
41
0.0200
0
VERTEX
8
12
10
4.975000
20
2.650000
42
0.000000
0
VERTEX
8
12
10
4.975000
20
2.710000
42
0.000000
0
SEQEND
0
INSERT
8
12
2
32767
10
4.9750
20
2.7100
41
0.0200
42
0.0200
0
INSERT
8
12
2
32767
10
4.9400
20
2.6500
41
0.0200
42
0.0200
0
POLYLINE
8
12
66
1
40
0.0200
41
0.0200
0
VERTEX
8
12
10
4.940000
20
2.650000
42
0.000000
0
VERTEX
8
12
10
4.940000
20
2.710000
42
0.000000
0
SEQEND
0
INSERT
8
12
2
32767
10
4.9400
20
2.7100
41
0.0200
42
0.0200
0
INSERT
8
12
2
32767
10
4.8900
20
2.6750
41
0.0200
42
0.0200
0
POLYLINE
8
12
66
1
40
0.0200
41
0.0200
0
VERTEX
8
12
10
4.890000
20
2.675000
42
0.000000
0
VERTEX
8
12
10
4.890000
20
2.710000
42
0.000000
0
SEQEND
0
INSERT
8
12
2
32767
10
4.8900
20
2.7100
41
0.0200
42
0.0200
0
INSERT
8
12
2
32767
10
4.8100
20
2.6750
41
0.0200
42
0.0200
0
POLYLINE
8
12
66
1
40
0.0200
41
0.0200
0
VERTEX
8
12
10
4.810000
20
2.675000
42
0.000000
0
VERTEX
8
12
10
4.810000
20
2.685000
42
0.000000
0
SEQEND
0
INSERT
8
12
2
32767
10
4.8100
20
2.6850
41
0.0200
42
0.0200
0
INSERT
8
12
2
32767
10
4.7450
20
2.6500
41
0.0200
42
0.0200
0
POLYLINE
8
12
66
1
40
0.0200
41
0.0200
0
VERTEX
8
12
10
4.745000
20
2.650000
42
0.000000
0
VERTEX
8
12
10
4.745000
20
2.710000
42
0.000000
0
SEQEND
0
INSERT
8
12
2
32767
10
4.7450
20
2.7100
41
0.0200
42
0.0200
0
INSERT
8
12
2
32767
10
4.7050
20
2.6500
41
0.0200
42
0.0200
0
POLYLINE
8
12
66
1
40
0.0200
41
0.0200
0
VERTEX
8
12
10
4.705000
20
2.650000
42
0.000000
0
VERTEX
8
12
10
4.705000
20
2.710000
42
0.000000
0
SEQEND
0
INSERT
8
12
2
32767
10
4.7050
20
2.7100
41
0.0200
42
0.0200
0
INSERT
8
12
2
32767
10
4.6250
20
2.6750
41
0.0200
42
0.0200
0
POLYLINE
8
12
66
1
40
0.0200
41
0.0200
0
VERTEX
8
12
10
4.625000
20
2.675000
42
0.000000
0
VERTEX
8
12
10
4.625000
20
2.725000
42
0.000000
0
SEQEND
0
INSERT
8
12
2
32767
10
4.6250
20
2.7250
41
0.0200
42
0.0200
0
INSERT
8
12
2
32767
10
2.4300
20
3.5400
41
0.0100
42
0.0100
0
POLYLINE
8
12
66
1
40
0.0100
41
0.0100
0
VERTEX
8
12
10
2.430000
20
3.540000
42
0.414214
0
VERTEX
8
12
10
2.940000
20
3.030000
42
0.414214
0
SEQEND
0
INSERT
8
12
2
32767
10
2.9400
20
3.0300
41
0.0100
42
0.0100
0
INSERT
8
12
2
32767
10
7.6000
20
2.8500
41
0.0100
42
0.0100
0
POLYLINE
8
12
66
1
40
0.0100
41
0.0100
0
VERTEX
8
12
10
7.600000
20
2.850000
42
0.414214
0
VERTEX
8
12
10
7.750000
20
3.000000
42
0.414214
0
SEQEND
0
INSERT
8
12
2
32767
10
7.7500
20
3.0000
41
0.0100
42
0.0100
0
INSERT
8
12
2
32767
10
2.2500
20
3.0000
41
0.0100
42
0.0100
0
POLYLINE
8
12
66
1
40
0.0100
41
0.0100
0
VERTEX
8
12
10
2.250000
20
3.000000
42
0.414214
0
VERTEX
8
12
10
2.400000
20
2.850000
42
0.414214
0
SEQEND
0
INSERT
8
12
2
32767
10
2.4000
20
2.8500
41
0.0100
42
0.0100
0
INSERT
8
12
2
32767
10
2.4000
20
7.1500
41
0.0100
42
0.0100
0
POLYLINE
8
12
66
1
40
0.0100
41
0.0100
0
VERTEX
8
12
10
2.400000
20
7.150000
42
0.414214
0
VERTEX
8
12
10
2.250000
20
7.000000
42
0.414214
0
SEQEND
0
INSERT
8
12
2
32767
10
2.2500
20
7.0000
41
0.0100
42
0.0100
0
INSERT
8
12
2
32767
10
7.7500
20
7.0000
41
0.0100
42
0.0100
0
POLYLINE
8
12
66
1
40
0.0100
41
0.0100
0
VERTEX
8
12
10
7.750000
20
7.000000
42
0.414214
0
VERTEX
8
12
10
7.600000
20
7.150000
42
0.414214
0
SEQEND
0
INSERT
8
12
2
32767
10
7.6000
20
7.1500
41
0.0100
42
0.0100
0
INSERT
8
12
2
32767
10
7.5700
20
6.4600
41
0.0100
42
0.0100
0
POLYLINE
8
12
66
1
40
0.0100
41
0.0100
0
VERTEX
8
12
10
7.570000
20
6.460000
42
0.414214
0
VERTEX
8
12
10
7.060000
20
6.970000
42
0.414214
0
SEQEND
0
INSERT
8
12
2
32767
10
7.0600
20
6.9700
41
0.0100
42
0.0100
0
INSERT
8
12
2
32767
10
2.9400
20
6.9700
41
0.0100
42
0.0100
0
POLYLINE
8
12
66
1
40
0.0100
41
0.0100
0
VERTEX
8
12
10
2.940000
20
6.970000
42
0.414214
0
VERTEX
8
12
10
2.430000
20
6.460000
42
0.414214
0
SEQEND
0
INSERT
8
12
2
32767
10
2.4300
20
6.4600
41
0.0100
42
0.0100
0
INSERT
8
12
2
32767
10
7.0600
20
3.0300
41
0.0100
42
0.0100
0
POLYLINE
8
12
66
1
40
0.0100
41
0.0100
0
VERTEX
8
12
10
7.060000
20
3.030000
42
0.414214
0
VERTEX
8
12
10
7.570000
20
3.540000
42
0.414214
0
SEQEND
0
INSERT
8
12
2
32767
10
7.5700
20
3.5400
41
0.0100
42
0.0100
0
POLYLINE
8
12
66
1
40
0.0100
41
0.0100
0
VERTEX
8
12
10
4.980000
20
2.740000
42
1.000000
0
VERTEX
8
12
10
4.970000
20
2.740000
42
1.000000
0
VERTEX
8
12
10
4.980000
20
2.740000
42
1.000000
0
SEQEND
0
POLYLINE
8
12
66
1
40
0.0100
41
0.0100
0
VERTEX
8
12
10
4.710000
20
2.740000
42
1.000000
0
VERTEX
8
12
10
4.700000
20
2.740000
42
1.000000
0
VERTEX
8
12
10
4.710000
20
2.740000
42
1.000000
0
SEQEND
0
INSERT
8
12
2
32767
10
5.2500
20
2.6750
41
0.0200
42
0.0200
0
POLYLINE
8
12
66
1
40
0.0200
41
0.0200
0
VERTEX
8
12
10
5.250000
20
2.675000
42
0.719897
0
VERTEX
8
12
10
5.294966
20
2.659955
42
0.719897
0
SEQEND
0
INSERT
8
12
2
32767
10
5.2950
20
2.6600
41
0.0200
42
0.0200
0
INSERT
8
12
2
32767
10
5.2950
20
2.7000
41
0.0200
42
0.0200
0
POLYLINE
8
12
66
1
40
0.0200
41
0.0200
0
VERTEX
8
12
10
5.294966
20
2.700045
42
0.719897
0
VERTEX
8
12
10
5.250000
20
2.685000
42
0.719897
0
SEQEND
0
INSERT
8
12
2
32767
10
5.2500
20
2.6850
41
0.0200
42
0.0200
0
INSERT
8
12
2
32767
10
5.2200
20
2.6850
41
0.0200
42
0.0200
0
POLYLINE
8
12
66
1
40
0.0200
41
0.0200
0
VERTEX
8
12
10
5.220000
20
2.685000
42
1.000000
0
VERTEX
8
12
10
5.170000
20
2.685000
42
1.000000
0
SEQEND
0
INSERT
8
12
2
32767
10
5.1700
20
2.6850
41
0.0200
42
0.0200
0
INSERT
8
12
2
32767
10
5.0950
20
2.6550
41
0.0200
42
0.0200
0
POLYLINE
8
12
66
1
40
0.0200
41
0.0200
0
VERTEX
8
12
10
5.095045
20
2.654966
42
0.162860
0
VERTEX
8
12
10
5.080000
20
2.660000
42
0.162860
0
SEQEND
0
INSERT
8
12
2
32767
10
5.0800
20
2.6600
41
0.0200
42
0.0200
0
INSERT
8
12
2
32767
10
5.1250
20
2.7450
41
0.0200
42
0.0200
0
POLYLINE
8
12
66
1
40
0.0200
41
0.0200
0
VERTEX
8
12
10
5.125045
20
2.744966
42
1.389088
0
VERTEX
8
12
10
5.110000
20
2.700000
42
1.389088
0
SEQEND
0
INSERT
8
12
2
32767
10
5.1100
20
2.7000
41
0.0200
42
0.0200
0
INSERT
8
12
2
32767
10
5.0950
20
2.6550
41
0.0200
42
0.0200
0
POLYLINE
8
12
66
1
40
0.0200
41
0.0200
0
VERTEX
8
12
10
5.094955
20
2.655034
42
1.389088
0
VERTEX
8
12
10
5.110000
20
2.700000
42
1.389088
0
SEQEND
0
INSERT
8
12
2
32767
10
5.1100
20
2.7000
41
0.0200
42
0.0200
0
INSERT
8
12
2
32767
10
4.8900
20
2.6750
41
0.0200
42
0.0200
0
POLYLINE
8
12
66
1
40
0.0200
41
0.0200
0
VERTEX
8
12
10
4.890000
20
2.675000
42
1.000000
0
VERTEX
8
12
10
4.940000
20
2.675000
42
1.000000
0
SEQEND
0
INSERT
8
12
2
32767
10
4.9400
20
2.6750
41
0.0200
42
0.0200
0
INSERT
8
12
2
32767
10
4.8100
20
2.6750
41
0.0200
42
0.0200
0
POLYLINE
8
12
66
1
40
0.0200
41
0.0200
0
VERTEX
8
12
10
4.810000
20
2.675000
42
0.719897
0
VERTEX
8
12
10
4.854966
20
2.659955
42
0.719897
0
SEQEND
0
INSERT
8
12
2
32767
10
4.8550
20
2.6600
41
0.0200
42
0.0200
0
INSERT
8
12
2
32767
10
4.8550
20
2.7000
41
0.0200
42
0.0200
0
POLYLINE
8
12
66
1
40
0.0200
41
0.0200
0
VERTEX
8
12
10
4.854966
20
2.700045
42
0.719897
0
VERTEX
8
12
10
4.810000
20
2.685000
42
0.719897
0
SEQEND
0
INSERT
8
12
2
32767
10
4.8100
20
2.6850
41
0.0200
42
0.0200
0
INSERT
8
12
2
32767
10
4.7850
20
2.7050
41
0.0200
42
0.0200
0
POLYLINE
8
12
66
1
40
0.0200
41
0.0200
0
VERTEX
8
12
10
4.785045
20
2.704966
42
0.618819
0
VERTEX
8
12
10
4.745000
20
2.685000
42
0.618819
0
SEQEND
0
INSERT
8
12
2
32767
10
4.7450
20
2.6850
41
0.0200
42
0.0200
0
INSERT
8
12
2
32767
10
4.6250
20
2.6750
41
0.0200
42
0.0200
0
POLYLINE
8
12
66
1
40
0.0200
41
0.0200
0
VERTEX
8
12
10
4.625000
20
2.675000
42
0.719897
0
VERTEX
8
12
10
4.669966
20
2.659955
42
0.719897
0
SEQEND
0
INSERT
8
12
2
32767
10
4.6700
20
2.6600
41
0.0200
42
0.0200
0
INSERT
8
12
2
32767
10
4.6700
20
2.7400
41
0.0200
42
0.0200
0
POLYLINE
8
12
66
1
40
0.0200
41
0.0200
0
VERTEX
8
12
10
4.669966
20
2.740045
42
0.719897
0
VERTEX
8
12
10
4.625000
20
2.725000
42
0.719897
0
SEQEND
0
INSERT
8
12
2
32767
10
4.6250
20
2.7250
41
0.0200
42
0.0200
0
INSERT
8
13
2
32767
10
3.5400
20
2.4300
41
0.0100
42
0.0100
0
POLYLINE
8
13
66
1
40
0.0100
41
0.0100
0
VERTEX
8
13
10
3.540000
20
2.430000
42
0.000000
0
VERTEX
8
13
10
6.460000
20
2.430000
42
0.000000
0
SEQEND
0
INSERT
8
13
2
32767
10
6.4600
20
2.4300
41
0.0100
42
0.0100
0
INSERT
8
13
2
32767
10
6.9700
20
2.9400
41
0.0100
42
0.0100
0
POLYLINE
8
13
66
1
40
0.0100
41
0.0100
0
VERTEX
8
13
10
6.970000
20
2.940000
42
0.000000
0
VERTEX
8
13
10
6.970000
20
7.060000
42
0.000000
0
SEQEND
0
INSERT
8
13
2
32767
10
6.9700
20
7.0600
41
0.0100
42
0.0100
0
INSERT
8
13
2
32767
10
3.5400
20
7.5700
41
0.0100
42
0.0100
0
POLYLINE
8
13
66
1
40
0.0100
41
0.0100
0
VERTEX
8
13
10
3.540000
20
7.570000
42
0.000000
0
VERTEX
8
13
10
6.460000
20
7.570000
42
0.000000
0
SEQEND
0
INSERT
8
13
2
32767
10
6.4600
20
7.5700
41
0.0100
42
0.0100
0
INSERT
8
13
2
32767
10
3.0300
20
2.9400
41
0.0100
42
0.0100
0
POLYLINE
8
13
66
1
40
0.0100
41
0.0100
0
VERTEX
8
13
10
3.030000
20
2.940000
42
0.000000
0
VERTEX
8
13
10
3.030000
20
7.060000
42
0.000000
0
SEQEND
0
INSERT
8
13
2
32767
10
3.0300
20
7.0600
41
0.0100
42
0.0100
0
INSERT
8
13
2
32767
10
7.1500
20
2.4000
41
0.0100
42
0.0100
0
POLYLINE
8
13
66
1
40
0.0100
41
0.0100
0
VERTEX
8
13
10
7.150000
20
2.400000
42
0.000000
0
VERTEX
8
13
10
7.150000
20
7.600000
42
0.000000
0
SEQEND
0
INSERT
8
13
2
32767
10
7.1500
20
7.6000
41
0.0100
42
0.0100
0
INSERT
8
13
2
32767
10
3.0000
20
2.2500
41
0.0100
42
0.0100
0
POLYLINE
8
13
66
1
40
0.0100
41
0.0100
0
VERTEX
8
13
10
3.000000
20
2.250000
42
0.000000
0
VERTEX
8
13
10
7.000000
20
2.250000
42
0.000000
0
SEQEND
0
INSERT
8
13
2
32767
10
7.0000
20
2.2500
41
0.0100
42
0.0100
0
INSERT
8
13
2
32767
10
2.8500
20
2.4000
41
0.0100
42
0.0100
0
POLYLINE
8
13
66
1
40
0.0100
41
0.0100
0
VERTEX
8
13
10
2.850000
20
2.400000
42
0.000000
0
VERTEX
8
13
10
2.850000
20
7.600000
42
0.000000
0
SEQEND
0
INSERT
8
13
2
32767
10
2.8500
20
7.6000
41
0.0100
42
0.0100
0
INSERT
8
13
2
32767
10
3.0000
20
7.7500
41
0.0100
42
0.0100
0
POLYLINE
8
13
66
1
40
0.0100
41
0.0100
0
VERTEX
8
13
10
3.000000
20
7.750000
42
0.000000
0
VERTEX
8
13
10
7.000000
20
7.750000
42
0.000000
0
SEQEND
0
INSERT
8
13
2
32767
10
7.0000
20
7.7500
41
0.0100
42
0.0100
0
INSERT
8
13
2
32767
10
3.0300
20
2.9400
41
0.0100
42
0.0100
0
POLYLINE
8
13
66
1
40
0.0100
41
0.0100
0
VERTEX
8
13
10
3.030000
20
2.940000
42
0.414214
0
VERTEX
8
13
10
3.540000
20
2.430000
42
0.414214
0
SEQEND
0
INSERT
8
13
2
32767
10
3.5400
20
2.4300
41
0.0100
42
0.0100
0
INSERT
8
13
2
32767
10
6.4600
20
2.4300
41
0.0100
42
0.0100
0
POLYLINE
8
13
66
1
40
0.0100
41
0.0100
0
VERTEX
8
13
10
6.460000
20
2.430000
42
0.414214
0
VERTEX
8
13
10
6.970000
20
2.940000
42
0.414214
0
SEQEND
0
INSERT
8
13
2
32767
10
6.9700
20
2.9400
41
0.0100
42
0.0100
0
INSERT
8
13
2
32767
10
6.9700
20
7.0600
41
0.0100
42
0.0100
0
POLYLINE
8
13
66
1
40
0.0100
41
0.0100
0
VERTEX
8
13
10
6.970000
20
7.060000
42
0.414214
0
VERTEX
8
13
10
6.460000
20
7.570000
42
0.414214
0
SEQEND
0
INSERT
8
13
2
32767
10
6.4600
20
7.5700
41
0.0100
42
0.0100
0
INSERT
8
13
2
32767
10
3.5400
20
7.5700
41
0.0100
42
0.0100
0
POLYLINE
8
13
66
1
40
0.0100
41
0.0100
0
VERTEX
8
13
10
3.540000
20
7.570000
42
0.414214
0
VERTEX
8
13
10
3.030000
20
7.060000
42
0.414214
0
SEQEND
0
INSERT
8
13
2
32767
10
3.0300
20
7.0600
41
0.0100
42
0.0100
0
INSERT
8
13
2
32767
10
7.1500
20
7.6000
41
0.0100
42
0.0100
0
POLYLINE
8
13
66
1
40
0.0100
41
0.0100
0
VERTEX
8
13
10
7.150000
20
7.600000
42
0.414214
0
VERTEX
8
13
10
7.000000
20
7.750000
42
0.414214
0
SEQEND
0
INSERT
8
13
2
32767
10
7.0000
20
7.7500
41
0.0100
42
0.0100
0
INSERT
8
13
2
32767
10
7.0000
20
2.2500
41
0.0100
42
0.0100
0
POLYLINE
8
13
66
1
40
0.0100
41
0.0100
0
VERTEX
8
13
10
7.000000
20
2.250000
42
0.414214
0
VERTEX
8
13
10
7.150000
20
2.400000
42
0.414214
0
SEQEND
0
INSERT
8
13
2
32767
10
7.1500
20
2.4000
41
0.0100
42
0.0100
0
INSERT
8
13
2
32767
10
2.8500
20
2.4000
41
0.0100
42
0.0100
0
POLYLINE
8
13
66
1
40
0.0100
41
0.0100
0
VERTEX
8
13
10
2.850000
20
2.400000
42
0.414214
0
VERTEX
8
13
10
3.000000
20
2.250000
42
0.414214
0
SEQEND
0
INSERT
8
13
2
32767
10
3.0000
20
2.2500
41
0.0100
42
0.0100
0
INSERT
8
13
2
32767
10
3.0000
20
7.7500
41
0.0100
42
0.0100
0
POLYLINE
8
13
66
1
40
0.0100
41
0.0100
0
VERTEX
8
13
10
3.000000
20
7.750000
42
0.414214
0
VERTEX
8
13
10
2.850000
20
7.600000
42
0.414214
0
SEQEND
0
INSERT
8
13
2
32767
10
2.8500
20
7.6000
41
0.0100
42
0.0100
0
INSERT
8
14
2
32767
10
2.5500
20
2.2500
41
0.0100
42
0.0100
0
POLYLINE
8
14
66
1
40
0.0100
41
0.0100
0
VERTEX
8
14
10
2.550000
20
2.250000
42
0.000000
0
VERTEX
8
14
10
7.450000
20
2.250000
42
0.000000
0
SEQEND
0
INSERT
8
14
2
32767
10
7.4500
20
2.2500
41
0.0100
42
0.0100
0
INSERT
8
14
2
32767
10
7.7500
20
2.5500
41
0.0100
42
0.0100
0
POLYLINE
8
14
66
1
40
0.0100
41
0.0100
0
VERTEX
8
14
10
7.750000
20
2.550000
42
0.000000
0
VERTEX
8
14
10
7.750000
20
7.450000
42
0.000000
0
SEQEND
0
INSERT
8
14
2
32767
10
7.7500
20
7.4500
41
0.0100
42
0.0100
0
INSERT
8
14
2
32767
10
2.5500
20
7.7500
41
0.0100
42
0.0100
0
POLYLINE
8
14
66
1
40
0.0100
41
0.0100
0
VERTEX
8
14
10
2.550000
20
7.750000
42
0.000000
0
VERTEX
8
14
10
7.450000
20
7.750000
42
0.000000
0
SEQEND
0
INSERT
8
14
2
32767
10
7.4500
20
7.7500
41
0.0100
42
0.0100
0
INSERT
8
14
2
32767
10
2.2500
20
2.5500
41
0.0100
42
0.0100
0
POLYLINE
8
14
66
1
40
0.0100
41
0.0100
0
VERTEX
8
14
10
2.250000
20
2.550000
42
0.000000
0
VERTEX
8
14
10
2.250000
20
7.450000
42
0.000000
0
SEQEND
0
INSERT
8
14
2
32767
10
2.2500
20
7.4500
41
0.0100
42
0.0100
0
INSERT
8
14
2
32767
10
2.2500
20
2.5500
41
0.0100
42
0.0100
0
POLYLINE
8
14
66
1
40
0.0100
41
0.0100
0
VERTEX
8
14
10
2.250000
20
2.550000
42
0.414214
0
VERTEX
8
14
10
2.550000
20
2.250000
42
0.414214
0
SEQEND
0
INSERT
8
14
2
32767
10
2.5500
20
2.2500
41
0.0100
42
0.0100
0
INSERT
8
14
2
32767
10
7.4500
20
2.2500
41
0.0100
42
0.0100
0
POLYLINE
8
14
66
1
40
0.0100
41
0.0100
0
VERTEX
8
14
10
7.450000
20
2.250000
42
0.414214
0
VERTEX
8
14
10
7.750000
20
2.550000
42
0.414214
0
SEQEND
0
INSERT
8
14
2
32767
10
7.7500
20
2.5500
41
0.0100
42
0.0100
0
INSERT
8
14
2
32767
10
7.7500
20
7.4500
41
0.0100
42
0.0100
0
POLYLINE
8
14
66
1
40
0.0100
41
0.0100
0
VERTEX
8
14
10
7.750000
20
7.450000
42
0.414214
0
VERTEX
8
14
10
7.450000
20
7.750000
42
0.414214
0
SEQEND
0
INSERT
8
14
2
32767
10
7.4500
20
7.7500
41
0.0100
42
0.0100
0
INSERT
8
14
2
32767
10
2.5500
20
7.7500
41
0.0100
42
0.0100
0
POLYLINE
8
14
66
1
40
0.0100
41
0.0100
0
VERTEX
8
14
10
2.550000
20
7.750000
42
0.414214
0
VERTEX
8
14
10
2.250000
20
7.450000
42
0.414214
0
SEQEND
0
INSERT
8
14
2
32767
10
2.2500
20
7.4500
41
0.0100
42
0.0100
0
INSERT
8
25
2
0
10
7.4500
20
7.4500
50
0.0
0
INSERT
8
25
2
0
10
7.4500
20
2.5500
50
0.0
0
INSERT
8
25
2
0
10
2.5500
20
2.5500
50
0.0
0
INSERT
8
25
2
0
10
2.5500
20
7.4500
50
0.0
0
INSERT
8
25
2
0
10
7.0000
20
7.6000
50
0.0
0
INSERT
8
25
2
0
10
7.6000
20
7.0000
50
0.0
0
INSERT
8
25
2
0
10
7.6000
20
3.0000
50
0.0
0
INSERT
8
25
2
0
10
7.0000
20
2.4000
50
0.0
0
INSERT
8
25
2
0
10
3.0000
20
2.4000
50
0.0
0
INSERT
8
25
2
0
10
2.4000
20
3.0000
50
0.0
0
INSERT
8
25
2
0
10
3.0000
20
7.6000
50
0.0
0
INSERT
8
25
2
0
10
2.4000
20
7.0000
50
0.0
0
ENDSEC
0
EOF
